Pasarea Colibri – Pisica neagra

 

Tabulaturi: http://www.tabulaturi.ro/acorduri.php?tab_id=3493

INTRO
e------------------------------------------------------------------------------|
B------------------------------------------------------------------------------|
G------------------------------------------------------------------------------|
D------------------------------------------------------------------------------|  X2
A--0--3--0--3-----0--3--0--3--0----0--3--0--3--0------0------------0--3--0-----|
E--------------------------------------------------3---------0--3-----------3--|
e-----------------------------------------------------|
B-----------------------------------------------------|
G-----------------------------------------------------|
D--------------------------2--------------------2-----|  X2
A--------------------2--4------------------2--4-------|
E--0-----0--2--3--4------------0--2--3--4-------------|
e-----------------------------------------------------
B-----------------------------------------------------
G--------------------------2---------------------2----
D--------------------2--4------------------2--4-------
A--0-----0--2--3--4------------0--2--3--4-------------
E-----------------------------------------------------
e---------------------------------------------------------
B---------------------------------------------------------
G--------------------------2-----3s5--4--2----------------
D--------------------2--4-------------------4--2----------
A--0-----0--2--3--4-------------------------------4--0----
E---------------------------------------------------------
A
Cautand in aer prada,
D
O pisica trece strada
A                   E
Si e neagra, vai de noi,
A
Chiar si veacul se opreste
D
Si privind-o se gandeste
A               E  A
Cum s-o stearga inapoi!
A
Ca un om fara de minte,
D
Numai eu merg inainte,
A                       E
Toti imi striga "esti nebun?!"
A
Dar de ce imi este draga
D
Si iubesc pisica neagra,
A             E       A  
Asta n-am cum sa le-o spun.
REFREN:
D
Nu te speria iubito,
A
Chiar de spune lumea-ntreaga
E
C-ai avea pe inserate
A
Ochii de pisica neagra,
D
Daca tu provoci dezastre,
A
Doar dezastrul meu sa fii,
B
Taie-mi calea viata-ntreaga,
E           
Si de zece ori pe zi.
INTRO
Uite o pisica neagra
Lumea inapoi alearga
Dand cu pietre dupa ea
Cand o vad cum schiopateaza
Inima imi sangereaza
Si-ii fac loc in viata mea 
Toti asteapt-acum dezastrul,
Si sa-mi cada-n cap albastrul
Cerului, asa, pe loc!
Ei nu pot sa inteleaga
Cum, de ce, pisica neagra,
Mie-mi poarta doar noroc!
REFREN
INTRO
Cautand in aer prada, 
O pisica trece strada
Si e neagra, vai de noi,
Chiar si veacul se opreste
Si privind-o se gandeste 
Cum s-o stearga inapoi! 
Ca un om fara de minte,
Numai eu merg inainte,
Toti imi striga "esti nebun?!"
Dar de ce imi este draga 
Si iubesc pisica neagra,
Asta n-am cum sa le-o spun.

You may also like...