Praf in Ochi – O mie de ganduri

http://www.tabulaturi.ro/acorduri.php?tab_id=461

Emadd9: 024000
L - legato (prelungire a notei precedente)
Emadd9                   C                          Am  
E||------------------------------|--------------0-----------|
B||------------------------------|--------1--------1--------|
G||------------------0-----------|-----0-----0--------0-----|
D||------------4--------4--------|--------------------------|
A||---------2-----2--------2--3--|--L--------------------0--|
E||--0---------------------------|--------------------------|
D                              
--------------0-----------|--------------2-----------|
--------1--------1--------|--------3--------3--------|
-----2-----2--------2-----|-----2-----2--------2-----|
-----------------------0--|--L--------------------0--|
--L-----------------------|--------------------------|
--------------------------|--------------------------|
Emadd9                   C                          Am  
------------------------------|--------------0-----------|
------------------------------|--------1--------1--------|
------------------0-----------|-----0-----0--------0-----|
------------4--------4--------|--------------------------|
---------2-----2--------2--3--|--L--------------------0--|
--0---------------------------|--------------------------|
D                               
--------------0-----------|--------------2-----------||
--------1--------1--------|--------3--------3--------||
-----2-----2--------2-----|-----2-----2--------2-----||
-----------------------0--|--L--------------------0--||
--L-----------------------|--------------------------||
--------------------------|--------------------------||
Em                 C
Sunt o mie de gânduri
Am                D
Ce mă duc la tine mereu
Em      C  
Fără tine 
Am                   D
E pustiu în sufletul meu
şi simt că mă sting, aş vrea să te-ating
Să te simt lângă inima mea
Aştept acea zi când îţi vei aminti
Că sunt singura dragoste-a ta
Em            C      Am
Mă-nec în lacrimi de dor
Am             D             G
Mă sufocă un aer mult prea trist
Em        C
M-am obişnuit să ador
D       G     Em  C
O iubire care m-a uci-i-i-i-is
D        G   Em C
O iubire care m-a ucis
D        Em
O iubire care m-a ucis
Sunt o mie de lucruri
Ce-mi aduc aminte mereu
Doar de tine
Te-am uitat în sufletul meu
şi simt că mă sting, aş vrea să te-ating
Să te simt lângă inima mea
Aştept acea zi când îţi vei aminti
Că sunt singura dragoste-a ta
Mă-nec în lacrimi de dor
Mă sufocă un aer mult prea trist
M-am obişnuit să ador
O iubire care m-a uci-i-i-i-is
O iubire care m-a ucis
O iubire care m-a ucis

You may also like...

Leave a Reply